Παρασκευή, 18 Μαρτίου 2011

Ο ΠΡΟΣΚΥΝΗΤΗΣ




Εισαγωγή:
F  Am   ] 2x
Am              F                     Am
Τα βουνά περνάω και της θάλασσες περνώ
              F
κάποιον αγαπάω
Am               F                   Am
Δυο ευχές κρατάω και δυο τάματα κρατώ
               F
περπατώ και πάω
Dm                   Am            F          Em
Κάποιος είπε πως η αγάπη σ' ένα αστέρι κατοικεί
                      F
αύριο βράδυ θα 'μαι κει
Dm                  Am          F            Em
Κάποιος είπε πως ο έρωτας για μια στιγμή κρατά
                       Am
αύριο βράδυ θα 'ναι αργά
F  Am  F
Στα πουλιά μιλάω και στα δέντρα τραγουδώ
κάποιον αγαπάω
Κι όταν τραγουδάω προσευχές παραμιλώ
περπατώ και πάω
Dm...
Κάποιος είπε πως ο δρόμος είναι η φλέβα της φωτιάς
ψυχή μου πάντα να κυλάς
Κάποιος είπε πως ταξίδι είναι μόνο η προσευχή
καρδιά μου να 'σαι ζωντανή


Πέμπτη, 17 Μαρτίου 2011

Nirvana - Smells Like Teen Spirit


ΕΠΙΣΗΣ ΕΥΚΟΛΟ ΤΡΑΓΟΥΔΙ ΓΙΑ ΑΡΧΑΡΙΟΥΣ Η ΜΟΝΗ ΔΥΣΚΟΛΙΑ ΕΙΝΑΙ ΝΑ ΠΙΑΣΕΙΣ ΤΟΝ ΡΥΘΜΟ ΤΟΥ
Standard Tuning

^ = Bend
x = mute note
h = hammer-on
~ = vibrato

INTRO:
Guitar (clean):
e|-----------------|------------------|-----------------|------------------|
B|-----------------|------------------|-----------------|------------------|
G|-------------3-3-|-0------------6-6-|-------------3-3-|-0------------6-6-|
D|-3--3-3-xxxx-3-3-|-06--6-6-xxxx-6-6-|-3--3-3-xxxx-3-3-|-06--6-6-xxxx-6-6-|
A|-3--3-3-xxxx-1-1-|-06--6-6-xxxx-4-4-|-3--3-3-xxxx-1-1-|-06--6-6-xxxx-4-4-|
E|-1--1-1-xxxx-----|--4--4-4-xxxx-----|-1--1-1-xxxx-----|--4--4-4-xxxx-----|

Guitar (heavy dist)
e|-----------------|------------------|-----------------|------------------|
B|-----------------|------------------|-----------------|------------------|
G|-------------3-3-|-0------------6-6-|-------------3-3-|-0------------6-6-|
D|-3--3-3-xxxx-3-3-|-06--6-6-xxxx-6-6-|-3--3-3-xxxx-3-3-|-06--6-6-xxxx-6-6-|
A|-3--3-3-xxxx-1-1-|-06--6-6-xxxx-4-4-|-3--3-3-xxxx-1-1-|-06--6-6-xxxx-4-4-|
E|-1--1-1-xxxx-----|--4--4-4-xxxx-----|-1--1-1-xxxx-----|--4--4-4-xxxx-----|

e|-----------------|------------------|-----------------|------------------|
B|-----------------|------------------|-----------------|------------------|
G|-------------3-3-|-0------------6-6-|-------------3-3-|-0------------6-6-|
D|-3--3-3-xxxx-3-3-|-06--6-6-xxxx-6-6-|-3--3-3-xxxx-3-3-|-06--6-6-xxxx-6-6-|
A|-3--3-3-xxxx-1-1-|-06--6-6-xxxx-4-4-|-3--3-3-xxxx-1-1-|-06--6-6-xxxx-4-4-|
E|-1--1-1-xxxx-----|--4--4-4-xxxx-----|-1--1-1-xxxx-----|--4--4-4-xxxx-----|

VERSE:
Bass:
G|-----------------|-----------------|-----------------|-----------------|
D|-----------------|-----------------|-----------------|-----------------|
A|---------1-1-1-1-|---------4-4-4-4-|---------1-1-1-1-|---------4-4-4-4-|
E|-1-1-1-1---------|-4-4-4-4---------|-1-1-1-1---------|-4-4-4-4---------|

Guitar:
e|---------1-------|-----------------|---------1-------|-----------------|
B|--------1--------|-----------------|--------1--------|-----------------|
G|-----------------|-----------------|-----------------|-----------------|
D|-----------------|-----------------|-----------------|-----------------|
A|-----------------|-----------------|-----------------|-----------------|
E|-----------------|-----------------|-----------------|-----------------|

Bass:
G|-----------------|-----------------|-----------------|-----------------|
D|-----------------|-----------------|-----------------|-----------------|
A|---------1-1-1-1-|---------4-4-4-4-|---------1-1-1-1-|---------4-4-4-4-|
E|-1-1-1-1---------|-4-4-4-4---------|-1-1-1-1---------|-4-4-4-4---------|

Guitar:
e|---------1-------|-----------------|---------1-------|-----------------|
B|--------1--------|-----------------|--------1--------|-----------------|
G|-----------------|-----------------|-----------------|-----------------|
D|-----------------|-----------------|-----------------|-----------------|
A|-----------------|-----------------|-----------------|-----------------|
E|-----------------|-----------------|-----------------|-----------------|
           Load up on guns, and bring your friends its fun to lose

Bass:
G|-----------------|-----------------|-----------------|-----------------|
D|-----------------|-----------------|-----------------|-----------------|
A|---------1-1-1-1-|---------4-4-4-4-|---------1-1-1-1-|---------4-4-4-4-|
E|-1-1-1-1---------|-4-4-4-4---------|-1-1-1-1---------|-4-4-4-4---------|

Guitar:
e|---------1-------|-----------------|---------1-------|-----------------|
B|--------1--------|-----------------|--------1--------|-----------------|
G|-----------------|-----------------|-----------------|-----------------|
D|-----------------|-----------------|-----------------|-----------------|
A|-----------------|-----------------|-----------------|-----------------|
E|-----------------|-----------------|-----------------|-----------------|
   and to pretend, She's over bored and self-assured, I know I know a dirty word

PRECHORUS
Bass:
G|-----------------|-----------------|-----------------|-----------------|
D|-----------------|-----------------|-----------------|-----------------|
A|---------1-1-1-1-|---------4-4-4-4-|---------1-1-1-1-|---------4-4-4-4-|
E|-1-1-1-1---------|-4-4-4-4---------|-1-1-1-1---------|-4-4-4-4---------|

Guitar:
e|---6---6---6---6-|---6---6---6---6-|---6---6---6---6-|---6---6---6---6-|
B|-5---5---5---5---|-5---5---5---5---|-5---5---5---5---|-5---5---5---5---|
G|-----------------|-----------------|-----------------|-----------------|
D|-----------------|-----------------|-----------------|-----------------|
A|-----------------|-----------------|-----------------|-----------------|
E|-----------------|-----------------|-----------------|-----------------|

 Hello hello hello | Hello hello hello| Hello, hello, hello| Hello, hello, hello
           how low         how low      how low  

Guitar:
e|-----------------|------------------|-----------------|------------------|
B|-----------------|------------------|-----------------|------------------|
G|-------------3-3-|-0------------6-6-|-------------3-3-|-0------------6-6-|
D|-3--3-3-xxxx-3-3-|-06--6-6-xxxx-6-6-|-3--3-3-xxxx-3-3-|-06--6-6-xxxx-6-6-|
A|-3--3-3-xxxx-1-1-|-06--6-6-xxxx-4-4-|-3--3-3-xxxx-1-1-|-06--6-6-xxxx-4-4-|
E|-1--1-1-xxxx-----|--4--4-4-xxxx-----|-1--1-1-xxxx-----|--4--4-4-xxxx-----|

  With the lights out, its less dangerous here we are now, entertain us

e|-----------------|------------------|-----------------|------------------|
B|-----------------|------------------|-----------------|------------------|
G|-------------3-3-|-0------------6-6-|-------------3-3-|-0------------6-6-|
D|-3--3-3-xxxx-3-3-|-06--6-6-xxxx-6-6-|-3--3-3-xxxx-3-3-|-06--6-6-xxxx-6-6-|
A|-3--3-3-xxxx-1-1-|-06--6-6-xxxx-4-4-|-3--3-3-xxxx-1-1-|-06--6-6-xxxx-4-4-|
E|-1--1-1-xxxx-----|--4--4-4-xxxx-----|-1--1-1-xxxx-----|--4--4-4-xxxx-----|

  I feel stupid, and contagious,      here we are now, entertain us

e|-----------------|------------------|-----------------|------------------|
B|-----------------|------------------|-----------------|------------------|
G|-------------3-3-|-0------------6-6-|-------------3-3-|-0------------6-6-|
D|-3--3-3-xxxx-3-3-|-06--6-6-xxxx-6-6-|-3--3-3-xxxx-3-3-|-06--6-6-xxxx-6-6-|
A|-3--3-3-xxxx-1-1-|-06--6-6-xxxx-4-4-|-3--3-3-xxxx-1-1-|-06--6-6-xxxx-4-4-|
E|-1--1-1-xxxx-----|--4--4-4-xxxx-----|-1--1-1-xxxx-----|--4--4-4-xxxx-----|

  A mulatto,   An albino A mosquito   My libido, yeah

e|---------------|----------------|---------------|----------------|
B|---------------|----------------|---------------|----------------|
G|-------------3^|-------3-3------|-------------3^|-------3-3------|
D|-3--3-3-4-4----|-3-3-3-3-3--6-6-|-3--3-3-4-4----|-3-3-3-3-3--6-6-|
A|-3--3-3-4-4----|-3-3-3-1-1--6-6-|-3--3-3-4-4----|-3-3-3-1-1--6-6-|
E|-1--1-1-2-2----|-1-1-1------4-4-|-1--1-1-2-2----|-1-1-1------4-4-|
              hey!                              hey!

Bass:
G|-----------------|-----------------|-----------------|-----------------|
D|-----------------|-----------------|-----------------|-----------------|
A|---------1-1-1-1-|---------4-4-4-4-|---------1-1-1-1-|---------4-4-4-4-|
E|-1-1-1-1---------|-4-4-4-4---------|-1-1-1-1---------|-4-4-4-4---------|

Guitar:
e|---------1-------|-----------------|---------1-------|-----------------|
B|--------1--------|-----------------|--------1--------|-----------------|
G|-----------------|-----------------|-----------------|-----------------|
D|-----------------|-----------------|-----------------|-----------------|
A|-----------------|-----------------|-----------------|-----------------|
E|-----------------|-----------------|-----------------|-----------------|

Bass:
G|-----------------|-----------------|-----------------|-----------------|
D|-----------------|-----------------|-----------------|-----------------|
A|---------1-1-1-1-|---------4-4-4-4-|---------1-1-1-1-|---------4-4-4-4-|
E|-1-1-1-1---------|-4-4-4-4---------|-1-1-1-1---------|-4-4-4-4---------|

Guitar:
e|---------1-------|-----------------|---------1-------|-----------------|
B|--------1--------|-----------------|--------1--------|-----------------|
G|-----------------|-----------------|-----------------|-----------------|
D|-----------------|-----------------|-----------------|-----------------|
A|-----------------|-----------------|-----------------|-----------------|
E|-----------------|-----------------|-----------------|-----------------|
           I'm worse at what what I do best, and for this gift I feel blessed

Bass:
G|-----------------|-----------------|-----------------|-----------------|
D|-----------------|-----------------|-----------------|-----------------|
A|---------1-1-1-1-|---------4-4-4-4-|---------1-1-1-1-|---------4-4-4-4-|
E|-1-1-1-1---------|-4-4-4-4---------|-1-1-1-1---------|-4-4-4-4---------|

Guitar:
e|---------1-------|-----------------|---------1-------|-----------------|
B|--------1--------|-----------------|--------1--------|-----------------|
G|-----------------|-----------------|-----------------|-----------------|
D|-----------------|-----------------|-----------------|-----------------|
A|-----------------|-----------------|-----------------|-----------------|
E|-----------------|-----------------|-----------------|-----------------|
    our little group, has always been, and always will until the end

PRECHORUS
Bass:
G|-----------------|-----------------|-----------------|-----------------|
D|-----------------|-----------------|-----------------|-----------------|
A|---------1-1-1-1-|---------4-4-4-4-|---------1-1-1-1-|---------4-4-4-4-|
E|-1-1-1-1---------|-4-4-4-4---------|-1-1-1-1---------|-4-4-4-4---------|

Guitar:
e|---6---6---6---6-|---6---6---6---6-|---6---6---6---6-|---6---6---6---6-|
B|-5---5---5---5---|-5---5---5---5---|-5---5---5---5---|-5---5---5---5---|
G|-----------------|-----------------|-----------------|-----------------|
D|-----------------|-----------------|-----------------|-----------------|
A|-----------------|-----------------|-----------------|-----------------|
E|-----------------|-----------------|-----------------|-----------------|

 Hello hello hello | Hello hello hello| Hello, hello, hello| Hello, hello, hello
           how low         how low      how low  

Guitar:
e|-----------------|------------------|-----------------|------------------|
B|-----------------|------------------|-----------------|------------------|
G|-------------3-3-|-0------------6-6-|-------------3-3-|-0------------6-6-|
D|-3--3-3-xxxx-3-3-|-06--6-6-xxxx-6-6-|-3--3-3-xxxx-3-3-|-06--6-6-xxxx-6-6-|
A|-3--3-3-xxxx-1-1-|-06--6-6-xxxx-4-4-|-3--3-3-xxxx-1-1-|-06--6-6-xxxx-4-4-|
E|-1--1-1-xxxx-----|--4--4-4-xxxx-----|-1--1-1-xxxx-----|--4--4-4-xxxx-----|

  With the lights out, its less dangerous here we are now, entertain us

e|-----------------|------------------|-----------------|------------------|
B|-----------------|------------------|-----------------|------------------|
G|-------------3-3-|-0------------6-6-|-------------3-3-|-0------------6-6-|
D|-3--3-3-xxxx-3-3-|-06--6-6-xxxx-6-6-|-3--3-3-xxxx-3-3-|-06--6-6-xxxx-6-6-|
A|-3--3-3-xxxx-1-1-|-06--6-6-xxxx-4-4-|-3--3-3-xxxx-1-1-|-06--6-6-xxxx-4-4-|
E|-1--1-1-xxxx-----|--4--4-4-xxxx-----|-1--1-1-xxxx-----|--4--4-4-xxxx-----|

  I feel stupid, and contagious,      here we are now, entertain us

e|-----------------|------------------|-----------------|------------------|
B|-----------------|------------------|-----------------|------------------|
G|-------------3-3-|-0------------6-6-|-------------3-3-|-0------------6-6-|
D|-3--3-3-xxxx-3-3-|-06--6-6-xxxx-6-6-|-3--3-3-xxxx-3-3-|-06--6-6-xxxx-6-6-|
A|-3--3-3-xxxx-1-1-|-06--6-6-xxxx-4-4-|-3--3-3-xxxx-1-1-|-06--6-6-xxxx-4-4-|
E|-1--1-1-xxxx-----|--4--4-4-xxxx-----|-1--1-1-xxxx-----|--4--4-4-xxxx-----|

  A mulatto,   An albino A mosquito   My libido, yeah

e|---------------|----------------|---------------|----------------|
B|---------------|----------------|---------------|----------------|
G|-------------3^|-------3-3------|-------------3^|-------3-3------|
D|-3--3-3-4-4----|-3-3-3-3-3--6-6-|-3--3-3-4-4----|-3-3-3-3-3--6-6-|
A|-3--3-3-4-4----|-3-3-3-1-1--6-6-|-3--3-3-4-4----|-3-3-3-1-1--6-6-|
E|-1--1-1-2-2----|-1-1-1------4-4-|-1--1-1-2-2----|-1-1-1------4-4-|
              hey!                              hey!

Guitar One (Solo):
-Guitar Two plays chorus riff 6 times
e|--------------|---------------|-------------|-------------|
B|--------------|---------------|-------------|-------------|
G|-----8h10-----|-8-8^----6--5--|-6--5--------|-------------|
D|-10--------6--|---------------|-------8-6-8-|-8^----6--5--|
A|--------------|---------------|-------------|-------------|
E|--------------|---------------|-------------|-------------|

e|--------------|---------------|-------------|-------------|
B|--------------|---------------|-------------|-------------|
G|-----8h10-----|-8-8^----6--5--|-6--5--------|-------------|
D|-10--------6--|---------------|-------8-6-8-|-8^----6--5--|
A|--------------|---------------|-------------|-------------|
E|--------------|---------------|-------------|-------------|

e|-------------|--------------|-------------|--------------|
B|-------------|--------------|-------------|--------------|
G|-------------|--------------|-------------|--------------|
D|-6--5--6--5--|-6--5--6/5----|-6--5--6--5--|-6--5--6/5----|
A|-------------|-----------8--|-------------|-----------8~~|
E|-------------|--------------|-------------|--------------|

VERSE:
Bass:
G|-----------------|-----------------|-----------------|-----------------|
D|-----------------|-----------------|-----------------|-----------------|
A|---------1-1-1-1-|---------4-4-4-4-|---------1-1-1-1-|---------4-4-4-4-|
E|-1-1-1-1---------|-4-4-4-4---------|-1-1-1-1---------|-4-4-4-4---------|

G|-----------------|-----------------|-----------------|-----------------|
D|-----------------|-----------------|-----------------|-----------------|
A|---------1-1-1-1-|---------4-4-4-4-|---------1-1-1-1-|---------4-4-4-4-|
E|-1-1-1-1---------|-4-4-4-4---------|-1-1-1-1---------|-4-4-4-4---------|
  And I forget just what it takes and yet I guess it makes me smile

G|-----------------|-----------------|-----------------|-----------------|
D|-----------------|-----------------|-----------------|-----------------|
A|---------1-1-1-1-|---------4-4-4-4-|---------1-1-1-1-|---------4-4-4-4-|
E|-1-1-1-1---------|-4-4-4-4---------|-1-1-1-1---------|-4-4-4-4---------|
  I've found it hard, its hard to find, oh well whatever never mind

PRECHORUS
Bass:
G|-----------------|-----------------|-----------------|-----------------|
D|-----------------|-----------------|-----------------|-----------------|
A|---------1-1-1-1-|---------4-4-4-4-|---------1-1-1-1-|---------4-4-4-4-|
E|-1-1-1-1---------|-4-4-4-4---------|-1-1-1-1---------|-4-4-4-4---------|

Guitar:
e|---6---6---6---6-|---6---6---6---6-|---6---6---6---6-|---6---6---6---6-|
B|-5---5---5---5---|-5---5---5---5---|-5---5---5---5---|-5---5---5---5---|
G|-----------------|-----------------|-----------------|-----------------|
D|-----------------|-----------------|-----------------|-----------------|
A|-----------------|-----------------|-----------------|-----------------|
E|-----------------|-----------------|-----------------|-----------------|

 Hello hello hello | Hello hello hello| Hello, hello, hello| Hello, hello, hello
           how low         how low      how low  

Guitar:
e|-----------------|------------------|-----------------|------------------|
B|-----------------|------------------|-----------------|------------------|
G|-------------3-3-|-0------------6-6-|-------------3-3-|-0------------6-6-|
D|-3--3-3-xxxx-3-3-|-06--6-6-xxxx-6-6-|-3--3-3-xxxx-3-3-|-06--6-6-xxxx-6-6-|
A|-3--3-3-xxxx-1-1-|-06--6-6-xxxx-4-4-|-3--3-3-xxxx-1-1-|-06--6-6-xxxx-4-4-|
E|-1--1-1-xxxx-----|--4--4-4-xxxx-----|-1--1-1-xxxx-----|--4--4-4-xxxx-----|

  With the lights out, its less dangerous here we are now, entertain us

e|-----------------|------------------|-----------------|------------------|
B|-----------------|------------------|-----------------|------------------|
G|-------------3-3-|-0------------6-6-|-------------3-3-|-0------------6-6-|
D|-3--3-3-xxxx-3-3-|-06--6-6-xxxx-6-6-|-3--3-3-xxxx-3-3-|-06--6-6-xxxx-6-6-|
A|-3--3-3-xxxx-1-1-|-06--6-6-xxxx-4-4-|-3--3-3-xxxx-1-1-|-06--6-6-xxxx-4-4-|
E|-1--1-1-xxxx-----|--4--4-4-xxxx-----|-1--1-1-xxxx-----|--4--4-4-xxxx-----|

  I feel stupid, and contagious,      here we are now, entertain us

e|-----------------|------------------|-----------------|------------------|
B|-----------------|------------------|-----------------|------------------|
G|-------------3-3-|-0------------6-6-|-------------3-3-|-0------------6-6-|
D|-3--3-3-xxxx-3-3-|-06--6-6-xxxx-6-6-|-3--3-3-xxxx-3-3-|-06--6-6-xxxx-6-6-|
A|-3--3-3-xxxx-1-1-|-06--6-6-xxxx-4-4-|-3--3-3-xxxx-1-1-|-06--6-6-xxxx-4-4-|
E|-1--1-1-xxxx-----|--4--4-4-xxxx-----|-1--1-1-xxxx-----|--4--4-4-xxxx-----|

  A mulatto,   An albino A mosquito   My libido, 

e|-----------------|------------------|-----------------|------------------|
B|-----------------|------------------|-----------------|------------------|
G|-------------3-3-|-0------------6-6-|-------------3-3-|-0------------6-6-|
D|-3--3-3-xxxx-3-3-|-06--6-6-xxxx-6-6-|-3--3-3-xxxx-3-3-|-06--6-6-xxxx-6-6-|
A|-3--3-3-xxxx-1-1-|-06--6-6-xxxx-4-4-|-3--3-3-xxxx-1-1-|-06--6-6-xxxx-4-4-|
E|-1--1-1-xxxx-----|--4--4-4-xxxx-----|-1--1-1-xxxx-----|--4--4-4-xxxx-----|
  
  A denial      A denial  A denial  A denial

e|-----------------|------------------|-----------------|------------------|
B|-----------------|------------------|-----------------|------------------|
G|-------------3-3-|-0------------6-6-|-------------3-3-|-0------------6-6-|
D|-3--3-3-xxxx-3-3-|-06--6-6-xxxx-6-6-|-3--3-3-xxxx-3-3-|-06--6-6-xxxx-6-6-|
A|-3--3-3-xxxx-1-1-|-06--6-6-xxxx-4-4-|-3--3-3-xxxx-1-1-|-06--6-6-xxxx-4-4-|
E|-1--1-1-xxxx-----|--4--4-4-xxxx-----|-1--1-1-xxxx-----|--4--4-4-xxxx-----|
  
  A denial      A denial  A denial  A denial

e|--------------|--------------|
B|--------------|--------------|
G|--------------|--------------|
D|-3------------|--------------|
A|-3------------|--------------|
E|-1------------|--------------|
  A denial....................

IRON MAN


ΕΝΑ ΕΥΚΟΛΟ ΤΡΑΓΟΥΔΙ ΓΙΑ ΞΕΚΙΝΗΜΑ
song begins by bending the low E string 1/4 fret on the 1st fret......"I AM IRON MAN"
repeat low E bend 2 times

|------------------------------------------    
|------------------------------------------   *this is     
|------------------------------------------   the rhythm
|----7--7/9-9--12\11-12\11-12\11--7-7/9-9--               
|-9--5--5/7-7--10\9--10\9--10\9---5-5/7-7--
|-7----------------------------------------
repeat once

|------------------------------------------
|------------------------------------------
|------------------------------------------
|------------------------------------------
|----5--5h7--7--10\9-10\9-10\9--5--5h7--7--
|-7----------------------------------------
 has he lost     can  he  see   or is  blind
         his                        he
          mind

repeat throughout the verse
rhythm once
|------------------------------------------
|------------------------------------------
|------------------------------------------
|------------------------------------------
|----5--5h7--7--10\9-10\9-10\9--5--5h7--7--
|-7----------------------------------------

Is he live or dead? Has he thoughts within his head, ect.
repeat throughout the verse

* 1st riff
|------------------------------------------------------
|------------------------------------------------------
|------------------------------------------------------
|------------------------------------------------------
|-----5-------------------------5----------------------
|-7-7---7-6-5-5-5-0h4-5-5-6-7-7---7-6-5-5-5-0h4-5-5-6--

*end of 1st riff
|-----------------
|-----------------
|-----------------
|-----------------
|-----5-----------
|-7-7---7-6-5-5-5-

rhythm twice

|------------------------------------------
|------------------------------------------
|------------------------------------------
|------------------------------------------
|----5--5h7--7--10\9-10\9-10\9--5--5h7--7--
|-7----------------------------------------

He was turned to steel in the great magnetic field, ect.

*bridge
|----------------------------------------------------
|----------------------------------------------------
|----------------------------------------------------
|-9------------------7-------------------------------
|-7------------------5-------------------------------
|----------------------------------------------------
   Nobody wants him    he just stares at the -

|------------------------------------------------------
|------------------------------------------------------
|------------------------------------------------------
|---------------------7-8-9----------------------7-8-9-
|-9--9-------7--7-8-9--------9--9-------7--7-8-9-------
|-7--7--7-10-----------------7--7--7-10----------------
world

repeat once -
 Planning his vengance that he will soon unfurl

rhythm twice

|------------------------------------------
|------------------------------------------
|------------------------------------------
|------------------------------------------
|----5--5h7--7--10\9-10\9-10\9--5--5h7--7--
|-7----------------------------------------

Now the time is here for Iron Man to spread fear, ect.

bridge - 
Nobody wants him, they just turn their heads, ect.

*lead*
|---------------------------------------------
|---------------------------------------------
|---------------------------------------------
|-11-9-------------------11-9-----------------
|------11-10-9-7--------------11-10-9-7-------
|----------------7-7/9-9----------------7-7h9-

|----------------------------------------------------------
|----------------------------------------------------------
|----------------------------------9-9---------9-9---------
|-------------------------9-9-9h11-----11p9--------11p9----
|-----7h9-9p7----7h9-9/11-------------------11----------11-
|-7h9---------9h-------------------------------------------

|--------------9-------------------------------------------
|-----------/9---12-9-----------------------9-12p9----9----
|---------------------11-9-9-----------9h11--------11------
|-9h11-11--------------------11-9-9h11---------------------
|----------------------------------------------------------
|----------------------------------------------------------

|------------------------9--------/14-14-14-14p12----------
|-12p9----9-12p9----9-12---12-9-9-----------------14h-14---
|------11--------11----------------------------------------
|----------------------------------------------------------
|----------------------------------------------------------
|----------------------------------------------------------

|--------9-9-----------------------------------------------
|-12-14------12p9-----9-12-12p9----------------------------
|-----------------11h-----------11h-11p9-----9-9-----------
|----------------------------------------11h-----11p9------
|-----------------------------------------------------11---
|----------------------------------------------------------

|----------------------------------------------------------
|----------------------------------------------------------
|------9-9---------------9---------------------------------
|-9h11-----11p9-----9h11---9-9h11-9h11-9h11-9h11-9h11-11---
|---------------11h----------------------------------------
|----------------------------------------------------------

|----------------------------------------------------------
|----------------------------------------------------------
|----------------------------------------------------------
|-9h11-9h11-9h11-9h11-9h11-11-11-9-----------------11-9----
|----------------------------------11-10-9-7------------11-
|--------------------------------------------7-7/9---------

|--------------
|--------------
|--------------
|--------------
|-10-9-7-------
|--------7-7/9-

repeat 2nd 1/2 of bridge twice =
|------------------------------------------------------
|------------------------------------------------------
|------------------------------------------------------
|---------------------7-8-9----------------------7-8-9-
|-9--9-------7--7-8-9--------9--9-------7--7-8-9-------
|-7--7--7-10-----------------7--7--7-10----------------

rhythm twice

|------------------------------------------
|------------------------------------------
|------------------------------------------
|------------------------------------------
|----5--5h7--7--10\9-10\9-10\9--5--5h7--7--
|-7----------------------------------------

ΠΕΝΤΑΤΟΝΙΚΗ MINOR (ΓΙΑ SOLO)


ΤΑΜΠΛΑΔΟΥΡΑ
A C D κτλπ. ειναι οι νότες
1 4 1 κτλπ. ειναι τα δάκτυλα

ΘΕΣΗ 1

 A  C  D  E  G  A  C  D  E  G  A  C
 1  4  1  3  1  3  1  3  1  4  1  4
-------------------------------5--8---------------
-------------------------5--8---------------------
-------------------5--7---------------------------
-------------5--7---------------------------------
-------5--7---------------------------------------
-5--8---------------------------------------------
(μπορει να ξεκινήσει και απο το 17ο ταστο)

ΘΕΣΗ  2

 C  D   E  G   A  C   D  E  G  A   C  D
 2  4   1  4   1  4   1  3  2  4   2  4
-----------------------------------8--10----------
----------------------------8--10-----------------
----------------------7--9------------------------
---------------7--10------------------------------
--------7--10-------------------------------------
-8--10--------------------------------------------
(μπορει να ξεκινήσει και απο το 20ο ταστο)
ΘΕΣΗ 3

 D   E   G   A   C   D   E  G   A   C   D   E
 1   3   1   3   1   3   1  4   1   4   1   3
----------------------------------------10--12----
--------------------------------10--13------------
-------------------------9--12--------------------
-----------------10--12---------------------------
---------10--12-----------------------------------
-10--12-------------------------------------------

ΘΕΣΗ 4

 E   G   A   C   D   E   G   A   C   D   E   G
 1   4   1   4   1   3   1   3   2   4   1   4
-----------------------------------------12--15---
---------------------------------13--15-----------
-------------------------12--14-------------------
-----------------12--14---------------------------
---------12--15-----------------------------------
-12--15-------------------------------------------

ΘΕΣΗ 5

 G   A   C   D   E   G   A   C   D   E   G   A
 2   4   1   4   1   4   1   4   2   4   2   4
-----------------------------------------15--17---
---------------------------------15--17-----------
-------------------------14--17-------------------
-----------------14--17---------------------------
---------15--17-----------------------------------
-15--17-------------------------------------------
 
(μπορει να ξεκινήσει και απο το 3ο τάστο)

ΜΑΘΗΜΑΤΑ

ΛΙΓΑ ΛΟΓΙΑ ΓΙΑ ΤΗΝ ΚΙΘΑΡΑ


Ηλεκτρική αποκαλείται η κιθάρα που χρησιμοποιεί ηλεκτρομαγνήτες για να μετατρέψει τον ηχητικό παλμό των ατσάλινων
χορδών της σε ηλεκτρικό ρεύμα το οποίο μπορεί έπειτα να ενισχυθεί από ένα σύστημα ενισχυτή-ηχείου. Το σήμα που προέρχεται από την κιθάρα μπορεί κάποιες φορές να διαφοροποιηθεί με εφέ όπως το reverb ή να παραμορφωθεί. Ενώ οι περισσότεροι τύποι ηλεκτρικής κιθάρας φέρουν έξι χορδές, απαντώνται και επτάχορδες οι οποίες χρησιμοποιούνται από κάποιους μουσικούς της τζαζ και της μέταλ μουσικής, ειδικά του είδους μέταλ Nu Metal. [1]καθώς και δωδεκάχορδες (με έξι ζεύγη χορδών οι οποίες απέχουν διάστημα μιας οκτάβας τις οποίες συναντάμε κυρίως σε μουσικά είδη όπως το τζανγκλ ποπ και το ροκ.
Η ηλεκτρική κιθάρα χρησιμοποιήθηκε αρχικά από big band μουσικούς της τζαζ ως ένα κούφιο όργανο, ηλεκτρικώς ενισχυμένο για μεγαλύτερη ένταση κατά την περίοδο της άνθησης του σουίνγκ. Οι πρώτες ηλεκτρικές κιθάρες διέθεταν κούφιο σώμα, ατσάλινες χορδές και ηλεκτρομαγνήτες με σπείρες από βολφράμιο που κατασκεύαζε η εταιρία Rickenbacker το 1931. Παρόλο που μερικές από τις πρώτες κατασκευάστηκαν από τον Les Paul, ο πρώτος επιτυχημένος εμπορικά τύπος ηλεκτρικής κιθάρας με κούφιο σώμα ήταν η Fender Esquire το 1950. Η ηλεκτρική κιθάρα ήταν ένα όργανο-κλειδί για την ανάπτυξη πολλών μουσικών ειδών που εμφανίστηκαν από τα τέλη του 1940 και μετά όπως το Σικάγο Μπλουζ, το πρώιμο Ροκ εντ Ρολ και το Ροκαμπίλι καθώς και το Μπλουζ Ροκ του 1960. Έχει επίσης χρησιμοποιηθεί σε διάφορα άλλα είδη μουσικής όπως η κάουντρι, η Άμπιεντ (ή Νιού Έιτζ) καθώς και σε κάποια είδη σύγχρονης ορχηστρικής μουσικής.